Lather Intro Guitar Tab

Thoughts, ideas, memories, you name it! Share your favorite stories, albums, tracks and more.

Lather Intro Guitar Tab

Postby brumus on Sun Apr 22, 2012 5:17 pm

Code: Select all
Here's the guitar tab for the Lather intro. I wanted to pay particular attention to this cause Kantner's beautiful acoustic 12 string sets the mood perfectly. It really should be played on a 12 string to get the full effect.

(Note: The tab really gets messed up when posting here. Hope it's still readable.)

First here are the two unusual but easy guitar chords:

Fmaj7b5       
e|----0-----| 
B|----0-----| 
G|----2-----| 
D|----3-----| 
A|----0-----| 
E|----X-----|

A9(no 3rd)
e|----0-----| 
B|----0-----| 
G|----0-----| 
D|----2-----| 
A|----0-----|
E|----X-----|
 
JEFFERSON AIRPLANE - LATHER INTRO
 
Tuning: Standard with capo on third fret (key of Cm)
Time: 3/4 (Waltz)

    Am                        Fmaj7b5                    Am                    A9(no 3rd)       
e|--------------------|-------------------------|---------------------|------------------------| 
B|--------------------|------------0------------|---------------------|----0------------------| 
G|--------2-----------|-----2-------------------|---2-----------------|----0------0-----------| 
D|----2-------2-------|-----3-----------3-------|---2------0---2------|----2-------------0---| 
A|----0-------0-------|-----0-------------------|---0-----------------|----0------------------| 
E|---------------------|------------------------|---------------------|-----------------------| 

    Am                      Am                          Am                        Am
e|--------------------------|-------------------|-----------------------|------------------------|
B|----1---0---------------|------0------------|-----1----0-----------|------------------------| 
G|----2---0--------2-------|-----0---------2---|----2----0-----2-----|------0----2-P-0----| 
D|-----------------2--------|--------------2---|---------------2----|-------0----2-P-0-----| 
A|--------------------------|------------------|-----------------------|------------------------
E|--------------------------|------------------|-----------------------|------------------------|

     
************************************   
| /   slide up 
| \   slide down 
| h   hammer-on 
| p   pull-off 
| ~   vibrato 
| +   harmonic 
| x   Mute note 
| b   Bend 
| pb  Pre-bend 
| br  Bend release 
| pbr Pre-bend release 
| brb Bend release bend   
************************************
 
 
User avatar
brumus
 
Posts: 57
Joined: Mon Mar 12, 2012 6:48 pm

Return to Jefferson Airplane Discussions

Who is online

Users browsing this forum: Google [Bot] and 3 guests

cron